  0
SECTION
  2
HEADER
  9
$ACADVER
  1
AC1009
  9
$DWGCODEPAGE
  3
ansi_1252
  9
$INSBASE
 10
0.0
 20
0.0
 30
0.0
  9
$EXTMIN
 10
2.340580319596328
 20
2.538730025231296
 30
0.0
  9
$EXTMAX
 10
165.6722657044418
 20
234.9449917325485
 30
0.0
  9
$LIMMIN
 10
0.0
 20
0.0
  9
$LIMMAX
 10
12.0
 20
9.0
  9
$ORTHOMODE
 70
     0
  9
$REGENMODE
 70
     1
  9
$FILLMODE
 70
     1
  9
$QTEXTMODE
 70
     0
  9
$MIRRTEXT
 70
     1
  9
$DRAGMODE
 70
     2
  9
$LTSCALE
 40
1.0
  9
$OSMODE
 70
    37
  9
$ATTMODE
 70
     1
  9
$TEXTSIZE
 40
0.2
  9
$TRACEWID
 40
0.05
  9
$TEXTSTYLE
  7
STANDARD
  9
$CLAYER
  8
0
  9
$CELTYPE
  6
BYLAYER
  9
$CECOLOR
 62
   256
  9
$DIMSCALE
 40
1.0
  9
$DIMASZ
 40
0.18
  9
$DIMEXO
 40
0.0625
  9
$DIMDLI
 40
0.38
  9
$DIMRND
 40
0.0
  9
$DIMDLE
 40
0.0
  9
$DIMEXE
 40
0.18
  9
$DIMTP
 40
0.0
  9
$DIMTM
 40
0.0
  9
$DIMTXT
 40
0.18
  9
$DIMCEN
 40
0.09
  9
$DIMTSZ
 40
0.0
  9
$DIMTOL
 70
     0
  9
$DIMLIM
 70
     0
  9
$DIMTIH
 70
     1
  9
$DIMTOH
 70
     1
  9
$DIMSE1
 70
     0
  9
$DIMSE2
 70
     0
  9
$DIMTAD
 70
     0
  9
$DIMZIN
 70
     0
  9
$DIMBLK
  1

  9
$DIMASO
 70
     1
  9
$DIMSHO
 70
     1
  9
$DIMPOST
  1

  9
$DIMAPOST
  1

  9
$DIMALT
 70
     0
  9
$DIMALTD
 70
     2
  9
$DIMALTF
 40
25.4
  9
$DIMLFAC
 40
1.0
  9
$DIMTOFL
 70
     0
  9
$DIMTVP
 40
0.0
  9
$DIMTIX
 70
     0
  9
$DIMSOXD
 70
     0
  9
$DIMSAH
 70
     0
  9
$DIMBLK1
  1

  9
$DIMBLK2
  1

  9
$DIMSTYLE
  2
STANDARD
  9
$DIMCLRD
 70
     0
  9
$DIMCLRE
 70
     0
  9
$DIMCLRT
 70
     0
  9
$DIMTFAC
 40
1.0
  9
$DIMGAP
 40
0.09
  9
$LUNITS
 70
     2
  9
$LUPREC
 70
     4
  9
$SKETCHINC
 40
0.1
  9
$FILLETRAD
 40
0.5
  9
$AUNITS
 70
     0
  9
$AUPREC
 70
     0
  9
$MENU
  1
.
  9
$ELEVATION
 40
0.0
  9
$PELEVATION
 40
0.0
  9
$THICKNESS
 40
0.0
  9
$LIMCHECK
 70
     0
  9
$CHAMFERA
 40
0.0
  9
$CHAMFERB
 40
0.0
  9
$SKPOLY
 70
     0
  9
$TDCREATE
 40
2454910.5
  9
$TDUPDATE
 40
2458260.837761609
  9
$TDINDWG
 40
0.0000000116
  9
$TDUSRTIMER
 40
0.0000000116
  9
$USRTIMER
 70
     1
  9
$ANGBASE
 50
0.0
  9
$ANGDIR
 70
     0
  9
$PDMODE
 70
     0
  9
$PDSIZE
 40
0.0
  9
$PLINEWID
 40
0.0
  9
$COORDS
 70
     1
  9
$SPLFRAME
 70
     0
  9
$SPLINETYPE
 70
     6
  9
$SPLINESEGS
 70
     8
  9
$ATTDIA
 70
     0
  9
$ATTREQ
 70
     1
  9
$HANDLING
 70
     1
  9
$HANDSEED
  5
255
  9
$SURFTAB1
 70
     6
  9
$SURFTAB2
 70
     6
  9
$SURFTYPE
 70
     6
  9
$SURFU
 70
     6
  9
$SURFV
 70
     6
  9
$UCSNAME
  2

  9
$UCSORG
 10
0.0
 20
0.0
 30
0.0
  9
$UCSXDIR
 10
1.0
 20
0.0
 30
0.0
  9
$UCSYDIR
 10
0.0
 20
1.0
 30
0.0
  9
$PUCSNAME
  2

  9
$PUCSORG
 10
0.0
 20
0.0
 30
0.0
  9
$PUCSXDIR
 10
1.0
 20
0.0
 30
0.0
  9
$PUCSYDIR
 10
0.0
 20
1.0
 30
0.0
  9
$USERI1
 70
     0
  9
$USERI2
 70
     0
  9
$USERI3
 70
     0
  9
$USERI4
 70
     0
  9
$USERI5
 70
     0
  9
$USERR1
 40
0.0
  9
$USERR2
 40
0.0
  9
$USERR3
 40
0.0
  9
$USERR4
 40
0.0
  9
$USERR5
 40
0.0
  9
$WORLDVIEW
 70
     1
  9
$SHADEDGE
 70
     3
  9
$SHADEDIF
 70
    70
  9
$TILEMODE
 70
     1
  9
$MAXACTVP
 70
    64
  9
$PLIMCHECK
 70
     0
  9
$PEXTMIN
 10
1.000000000000000E+20
 20
1.000000000000000E+20
 30
1.000000000000000E+20
  9
$PEXTMAX
 10
-1.000000000000000E+20
 20
-1.000000000000000E+20
 30
-1.000000000000000E+20
  9
$PLIMMIN
 10
0.0
 20
0.0
  9
$PLIMMAX
 10
12.0
 20
9.0
  9
$UNITMODE
 70
     0
  9
$VISRETAIN
 70
     1
  9
$PLINEGEN
 70
     0
  9
$PSLTSCALE
 70
     1
  0
ENDSEC
  0
SECTION
  2
TABLES
  0
TABLE
  2
VPORT
 70
     1
  0
VPORT
  2
*ACTIVE
 70
     0
 10
0.0
 20
0.0
 11
1.0
 21
1.0
 12
10.42990654205607
 22
4.5
 13
0.0
 23
0.0
 14
0.5
 24
0.5
 15
0.5
 25
0.5
 16
0.0
 26
0.0
 36
1.0
 17
0.0
 27
0.0
 37
0.0
 40
9.0
 41
1.972972972850329
 42
50.0
 43
0.0
 44
0.0
 50
0.0
 51
0.0
 71
     0
 72
   100
 73
     1
 74
     3
 75
     0
 76
     0
 77
     0
 78
     0
  0
ENDTAB
  0
TABLE
  2
LTYPE
 70
     2
  0
LTYPE
  2
CONTINUOUS
 70
     0
  3
Solid line
 72
    65
 73
     0
 40
0.0
  0
LTYPE
  2
CONTINUOUS2
 70
     0
  3
Solid Line
 72
    65
 73
     0
 40
0.0
  0
ENDTAB
  0
TABLE
  2
LAYER
 70
     6
  0
LAYER
  2
0
 70
     0
 62
     7
  6
CONTINUOUS
  0
LAYER
  2
LAYER_1
 70
     0
 62
    18
  6
CONTINUOUS
  0
LAYER
  2
BASE
 70
     0
 62
    18
  6
CONTINUOUS
  0
LAYER
  2
NUT_RECESS
 70
     0
 62
     6
  6
CONTINUOUS
  0
LAYER
  2
FRONTBACK
 70
     0
 62
    18
  6
CONTINUOUS
  0
LAYER
  2
SIDES
 70
     0
 62
    18
  6
CONTINUOUS
  0
ENDTAB
  0
TABLE
  2
STYLE
 70
     1
  0
STYLE
  2
STANDARD
 70
     0
 40
0.0
 41
1.0
 50
0.0
 71
     0
 42
0.2
  3
txt
  4

  0
ENDTAB
  0
TABLE
  2
VIEW
 70
     0
  0
ENDTAB
  0
TABLE
  2
UCS
 70
     0
  0
ENDTAB
  0
TABLE
  2
APPID
 70
     1
  0
APPID
  2
ACAD
 70
     0
  0
ENDTAB
  0
TABLE
  2
DIMSTYLE
 70
     1
  0
DIMSTYLE
  2
STANDARD
 70
     0
  3

  4

  5

  6

  7

 40
1.0
 41
0.18
 42
0.0625
 43
0.38
 44
0.18
 45
0.0
 46
0.0
 47
0.0
 48
0.0
140
0.18
141
0.09
142
0.0
143
25.4
144
1.0
145
0.0
146
1.0
147
0.09
 71
     0
 72
     0
 73
     1
 74
     1
 75
     0
 76
     0
 77
     0
 78
     0
170
     0
171
     2
172
     0
173
     0
174
     0
175
     0
176
     0
177
     0
178
     0
  0
ENDTAB
  0
ENDSEC
  0
SECTION
  2
BLOCKS
  0
BLOCK
  8
0
  2
$MODEL_SPACE
 70
     0
 10
0.0
 20
0.0
 30
0.0
  3
$MODEL_SPACE
  1

  0
ENDBLK
  5
21
  8
0
  0
BLOCK
 67
     1
  8
0
  2
$PAPER_SPACE
 70
     0
 10
0.0
 20
0.0
 30
0.0
  3
$PAPER_SPACE
  1

  0
ENDBLK
  5
1D
 67
     1
  8
0
  0
ENDSEC
  0
SECTION
  2
ENTITIES
  0
POLYLINE
  5
70
  8
LAYER_1
 66
     1
 10
0.0
 20
0.0
 30
0.0
 70
     1
  0
VERTEX
  5
9E
  8
LAYER_1
 10
2.340580319596328
 20
153.5374449116898
 30
0.0
  0
VERTEX
  5
9F
  8
LAYER_1
 10
2.340580319596328
 20
84.53742149705629
 30
0.0
 42
0.4153712343447178
  0
VERTEX
  5
A0
  8
LAYER_1
 10
5.352433051620248
 20
81.53744491169047
 30
0.0
  0
VERTEX
  5
A1
  8
LAYER_1
 10
84.3405803195963
 20
81.53744491169047
 30
0.0
 42
0.4142135623730903
  0
VERTEX
  5
A2
  8
LAYER_1
 10
87.34058031959633
 20
84.53744491169046
 30
0.0
  0
VERTEX
  5
A3
  8
LAYER_1
 10
87.34058031959633
 20
153.5374540580313
 30
0.0
 42
0.4149369958833576
  0
VERTEX
  5
A4
  8
LAYER_1
 10
84.33317235331472
 20
156.5374449116898
 30
0.0
  0
VERTEX
  5
A5
  8
LAYER_1
 10
5.340580319596351
 20
156.5374449116898
 30
0.0
 42
0.4142135623730896
  0
SEQEND
  5
232
  8
LAYER_1
  0
POLYLINE
  5
71
  8
LAYER_1
 66
     1
 10
0.0
 20
0.0
 30
0.0
 70
     1
  0
VERTEX
  5
A6
  8
LAYER_1
 10
34.04862072466739
 20
154.5874449116898
 30
0.0
  0
VERTEX
  5
A7
  8
LAYER_1
 10
25.53253991452525
 20
154.5874449116898
 30
0.0
 42
1.0
  0
VERTEX
  5
A8
  8
LAYER_1
 10
24.74058031959632
 20
153.7954853167609
 30
0.0
  0
VERTEX
  5
A9
  8
LAYER_1
 10
24.74058031959632
 20
152.2794045066188
 30
0.0
 42
1.0
  0
VERTEX
  5
AA
  8
LAYER_1
 10
25.53253991452525
 20
151.4874449116898
 30
0.0
  0
VERTEX
  5
AB
  8
LAYER_1
 10
34.04862072466739
 20
151.4874449116898
 30
0.0
 42
1.0
  0
VERTEX
  5
AC
  8
LAYER_1
 10
34.84058031959633
 20
152.2794045066188
 30
0.0
  0
VERTEX
  5
AD
  8
LAYER_1
 10
34.84058031959633
 20
153.7954853167609
 30
0.0
 42
1.0
  0
SEQEND
  5
233
  8
LAYER_1
  0
POLYLINE
  5
72
  8
LAYER_1
 66
     1
 10
0.0
 20
0.0
 30
0.0
 70
     1
  0
VERTEX
  5
AE
  8
LAYER_1
 10
64.14862072466738
 20
154.5874449116898
 30
0.0
  0
VERTEX
  5
AF
  8
LAYER_1
 10
55.63253991452526
 20
154.5874449116898
 30
0.0
 42
1.0
  0
VERTEX
  5
B0
  8
LAYER_1
 10
54.84058031959633
 20
153.7954853167609
 30
0.0
  0
VERTEX
  5
B1
  8
LAYER_1
 10
54.84058031959633
 20
152.2794045066188
 30
0.0
 42
1.0
  0
VERTEX
  5
B2
  8
LAYER_1
 10
55.63253991452526
 20
151.4874449116898
 30
0.0
  0
VERTEX
  5
B3
  8
LAYER_1
 10
64.14862072466738
 20
151.4874449116898
 30
0.0
 42
1.0
  0
VERTEX
  5
B4
  8
LAYER_1
 10
64.94058031959632
 20
152.2794045066188
 30
0.0
  0
VERTEX
  5
B5
  8
LAYER_1
 10
64.94058031959632
 20
153.7954853167609
 30
0.0
 42
1.0
  0
SEQEND
  5
234
  8
LAYER_1
  0
POLYLINE
  5
73
  8
LAYER_1
 66
     1
 10
0.0
 20
0.0
 30
0.0
 70
     1
  0
VERTEX
  5
B6
  8
LAYER_1
 10
4.290580319596332
 20
108.2454853167614
 30
0.0
  0
VERTEX
  5
B7
  8
LAYER_1
 10
4.290580319596332
 20
99.72940450661928
 30
0.0
 42
1.0
  0
VERTEX
  5
B8
  8
LAYER_1
 10
5.082539914525265
 20
98.93744491169035
 30
0.0
  0
VERTEX
  5
B9
  8
LAYER_1
 10
6.598620724667396
 20
98.93744491169035
 30
0.0
 42
1.0
  0
VERTEX
  5
BA
  8
LAYER_1
 10
7.390580319596329
 20
99.72940450661928
 30
0.0
  0
VERTEX
  5
BB
  8
LAYER_1
 10
7.390580319596329
 20
108.2454853167614
 30
0.0
 42
1.0
  0
VERTEX
  5
BC
  8
LAYER_1
 10
6.598620724667396
 20
109.0374449116903
 30
0.0
  0
VERTEX
  5
BD
  8
LAYER_1
 10
5.082539914525265
 20
109.0374449116903
 30
0.0
 42
1.0
  0
SEQEND
  5
235
  8
LAYER_1
  0
POLYLINE
  5
74
  8
LAYER_1
 66
     1
 10
0.0
 20
0.0
 30
0.0
 70
     1
  0
VERTEX
  5
BE
  8
LAYER_1
 10
4.290580319596332
 20
138.3454853167609
 30
0.0
  0
VERTEX
  5
BF
  8
LAYER_1
 10
4.290580319596332
 20
129.829404506619
 30
0.0
 42
1.0
  0
VERTEX
  5
C0
  8
LAYER_1
 10
5.082539914525265
 20
129.03744491169
 30
0.0
  0
VERTEX
  5
C1
  8
LAYER_1
 10
6.598620724667396
 20
129.03744491169
 30
0.0
 42
1.0
  0
VERTEX
  5
C2
  8
LAYER_1
 10
7.390580319596329
 20
129.829404506619
 30
0.0
  0
VERTEX
  5
C3
  8
LAYER_1
 10
7.390580319596329
 20
138.3454853167609
 30
0.0
 42
1.0
  0
VERTEX
  5
C4
  8
LAYER_1
 10
6.598620724667396
 20
139.1374449116899
 30
0.0
  0
VERTEX
  5
C5
  8
LAYER_1
 10
5.082539914525265
 20
139.1374449116899
 30
0.0
 42
1.0
  0
SEQEND
  5
236
  8
LAYER_1
  0
POLYLINE
  5
75
  8
LAYER_1
 66
     1
 10
0.0
 20
0.0
 30
0.0
 70
     1
  0
VERTEX
  5
C6
  8
LAYER_1
 10
25.53253991452525
 20
83.48744491169046
 30
0.0
  0
VERTEX
  5
C7
  8
LAYER_1
 10
34.04862072466739
 20
83.48744491169046
 30
0.0
 42
1.0
  0
VERTEX
  5
C8
  8
LAYER_1
 10
34.84058031959633
 20
84.27940450661939
 30
0.0
  0
VERTEX
  5
C9
  8
LAYER_1
 10
34.84058031959633
 20
85.7954853167615
 30
0.0
 42
1.0
  0
VERTEX
  5
CA
  8
LAYER_1
 10
34.04862072466739
 20
86.58744491169044
 30
0.0
  0
VERTEX
  5
CB
  8
LAYER_1
 10
25.53253991452525
 20
86.58744491169044
 30
0.0
 42
1.0
  0
VERTEX
  5
CC
  8
LAYER_1
 10
24.74058031959632
 20
85.7954853167615
 30
0.0
  0
VERTEX
  5
CD
  8
LAYER_1
 10
24.74058031959632
 20
84.27940450661939
 30
0.0
 42
1.0
  0
SEQEND
  5
237
  8
LAYER_1
  0
POLYLINE
  5
76
  8
LAYER_1
 66
     1
 10
0.0
 20
0.0
 30
0.0
 70
     1
  0
VERTEX
  5
CE
  8
LAYER_1
 10
55.63253991452526
 20
83.48744491169046
 30
0.0
  0
VERTEX
  5
CF
  8
LAYER_1
 10
64.14862072466738
 20
83.48744491169046
 30
0.0
 42
1.0
  0
VERTEX
  5
D0
  8
LAYER_1
 10
64.94058031959632
 20
84.27940450661939
 30
0.0
  0
VERTEX
  5
D1
  8
LAYER_1
 10
64.94058031959632
 20
85.7954853167615
 30
0.0
 42
1.0
  0
VERTEX
  5
D2
  8
LAYER_1
 10
64.14862072466738
 20
86.58744491169044
 30
0.0
  0
VERTEX
  5
D3
  8
LAYER_1
 10
55.63253991452526
 20
86.58744491169044
 30
0.0
 42
1.0
  0
VERTEX
  5
D4
  8
LAYER_1
 10
54.84058031959633
 20
85.7954853167615
 30
0.0
  0
VERTEX
  5
D5
  8
LAYER_1
 10
54.84058031959633
 20
84.27940450661939
 30
0.0
 42
1.0
  0
SEQEND
  5
238
  8
LAYER_1
  0
POLYLINE
  5
77
  8
LAYER_1
 66
     1
 10
0.0
 20
0.0
 30
0.0
 70
     1
  0
VERTEX
  5
D6
  8
LAYER_1
 10
85.39058031959632
 20
99.72940450661928
 30
0.0
  0
VERTEX
  5
D7
  8
LAYER_1
 10
85.39058031959632
 20
108.2454853167614
 30
0.0
 42
1.0
  0
VERTEX
  5
D8
  8
LAYER_1
 10
84.59862072466738
 20
109.0374449116903
 30
0.0
  0
VERTEX
  5
D9
  8
LAYER_1
 10
83.08253991452527
 20
109.0374449116903
 30
0.0
 42
1.0
  0
VERTEX
  5
DA
  8
LAYER_1
 10
82.29058031959633
 20
108.2454853167614
 30
0.0
  0
VERTEX
  5
DB
  8
LAYER_1
 10
82.29058031959633
 20
99.72940450661928
 30
0.0
 42
1.0
  0
VERTEX
  5
DC
  8
LAYER_1
 10
83.08253991452527
 20
98.93744491169035
 30
0.0
  0
VERTEX
  5
DD
  8
LAYER_1
 10
84.59862072466738
 20
98.93744491169035
 30
0.0
 42
1.0
  0
SEQEND
  5
239
  8
LAYER_1
  0
POLYLINE
  5
78
  8
LAYER_1
 66
     1
 10
0.0
 20
0.0
 30
0.0
 70
     1
  0
VERTEX
  5
DE
  8
LAYER_1
 10
85.39058031959632
 20
129.829404506619
 30
0.0
  0
VERTEX
  5
DF
  8
LAYER_1
 10
85.39058031959632
 20
138.3454853167609
 30
0.0
 42
1.0
  0
VERTEX
  5
E0
  8
LAYER_1
 10
84.59862072466738
 20
139.1374449116899
 30
0.0
  0
VERTEX
  5
E1
  8
LAYER_1
 10
83.08253991452527
 20
139.1374449116899
 30
0.0
 42
1.0
  0
VERTEX
  5
E2
  8
LAYER_1
 10
82.29058031959633
 20
138.3454853167609
 30
0.0
  0
VERTEX
  5
E3
  8
LAYER_1
 10
82.29058031959633
 20
129.829404506619
 30
0.0
 42
1.0
  0
VERTEX
  5
E4
  8
LAYER_1
 10
83.08253991452527
 20
129.03744491169
 30
0.0
  0
VERTEX
  5
E5
  8
LAYER_1
 10
84.59862072466738
 20
129.03744491169
 30
0.0
 42
1.0
  0
SEQEND
  5
23A
  8
LAYER_1
  0
POLYLINE
  5
79
  8
LAYER_1
 66
     1
 10
0.0
 20
0.0
 30
0.0
 70
     1
  0
VERTEX
  5
E6
  8
LAYER_1
 10
13.09058031959633
 20
93.96744491169036
 30
0.0
 42
0.4142135623730951
  0
VERTEX
  5
E7
  8
LAYER_1
 10
11.49058031959632
 20
92.36744491169038
 30
0.0
 42
0.4142135623730951
  0
VERTEX
  5
E8
  8
LAYER_1
 10
13.09058031959633
 20
90.76744491169042
 30
0.0
 42
0.4142135623730951
  0
VERTEX
  5
E9
  8
LAYER_1
 10
14.69058031959632
 20
92.36744491169038
 30
0.0
 42
0.4142135623730951
  0
SEQEND
  5
23B
  8
LAYER_1
  0
POLYLINE
  5
7A
  8
LAYER_1
 66
     1
 10
0.0
 20
0.0
 30
0.0
 70
     1
  0
VERTEX
  5
EA
  8
LAYER_1
 10
76.59058031959633
 20
147.3074449116898
 30
0.0
 42
0.4142135623730951
  0
VERTEX
  5
EB
  8
LAYER_1
 10
74.9905803195963
 20
145.7074449116898
 30
0.0
 42
0.4142135623730951
  0
VERTEX
  5
EC
  8
LAYER_1
 10
76.59058031959633
 20
144.1074449116898
 30
0.0
 42
0.4142135623730951
  0
VERTEX
  5
ED
  8
LAYER_1
 10
78.19058031959632
 20
145.7074449116898
 30
0.0
 42
0.4142135623730951
  0
SEQEND
  5
23C
  8
LAYER_1
  0
POLYLINE
  5
7C
  8
BASE
 66
     1
 10
0.0
 20
0.0
 30
0.0
 70
     1
  0
VERTEX
  5
EE
  8
BASE
 10
2.340580319596328
 20
74.53873002523129
 30
0.0
  0
VERTEX
  5
EF
  8
BASE
 10
2.340580319596328
 20
5.538706610597127
 30
0.0
 42
0.4153712343447178
  0
VERTEX
  5
F0
  8
BASE
 10
5.352433051620248
 20
2.538730025231296
 30
0.0
  0
VERTEX
  5
F1
  8
BASE
 10
84.3405803195963
 20
2.538730025231296
 30
0.0
 42
0.4142135623730903
  0
VERTEX
  5
F2
  8
BASE
 10
87.34058031959633
 20
5.538730025231298
 30
0.0
  0
VERTEX
  5
F3
  8
BASE
 10
87.34058031959633
 20
74.53873917157277
 30
0.0
 42
0.4149369958833576
  0
VERTEX
  5
F4
  8
BASE
 10
84.33317235331472
 20
77.53873002523129
 30
0.0
  0
VERTEX
  5
F5
  8
BASE
 10
5.340580319596351
 20
77.53873002523129
 30
0.0
 42
0.4142135623730896
  0
SEQEND
  5
23D
  8
BASE
  0
POLYLINE
  5
7D
  8
BASE
 66
     1
 10
0.0
 20
0.0
 30
0.0
 70
     1
  0
VERTEX
  5
F6
  8
BASE
 10
34.04862072466739
 20
75.5887300252313
 30
0.0
  0
VERTEX
  5
F7
  8
BASE
 10
25.53253991452525
 20
75.5887300252313
 30
0.0
 42
1.0
  0
VERTEX
  5
F8
  8
BASE
 10
24.74058031959632
 20
74.79677043030236
 30
0.0
  0
VERTEX
  5
F9
  8
BASE
 10
24.74058031959632
 20
73.28068962016025
 30
0.0
 42
1.0
  0
VERTEX
  5
FA
  8
BASE
 10
25.53253991452525
 20
72.4887300252313
 30
0.0
  0
VERTEX
  5
FB
  8
BASE
 10
34.04862072466739
 20
72.4887300252313
 30
0.0
 42
1.0
  0
VERTEX
  5
FC
  8
BASE
 10
34.84058031959633
 20
73.28068962016025
 30
0.0
  0
VERTEX
  5
FD
  8
BASE
 10
34.84058031959633
 20
74.79677043030236
 30
0.0
 42
1.0
  0
SEQEND
  5
23E
  8
BASE
  0
POLYLINE
  5
7E
  8
BASE
 66
     1
 10
0.0
 20
0.0
 30
0.0
 70
     1
  0
VERTEX
  5
FE
  8
BASE
 10
64.14862072466738
 20
75.5887300252313
 30
0.0
  0
VERTEX
  5
FF
  8
BASE
 10
55.63253991452526
 20
75.5887300252313
 30
0.0
 42
1.0
  0
VERTEX
  5
100
  8
BASE
 10
54.84058031959633
 20
74.79677043030236
 30
0.0
  0
VERTEX
  5
101
  8
BASE
 10
54.84058031959633
 20
73.28068962016025
 30
0.0
 42
1.0
  0
VERTEX
  5
102
  8
BASE
 10
55.63253991452526
 20
72.4887300252313
 30
0.0
  0
VERTEX
  5
103
  8
BASE
 10
64.14862072466738
 20
72.4887300252313
 30
0.0
 42
1.0
  0
VERTEX
  5
104
  8
BASE
 10
64.94058031959632
 20
73.28068962016025
 30
0.0
  0
VERTEX
  5
105
  8
BASE
 10
64.94058031959632
 20
74.79677043030236
 30
0.0
 42
1.0
  0
SEQEND
  5
23F
  8
BASE
  0
POLYLINE
  5
7F
  8
BASE
 66
     1
 10
0.0
 20
0.0
 30
0.0
 70
     1
  0
VERTEX
  5
106
  8
BASE
 10
4.290580319596332
 20
29.24677043030238
 30
0.0
  0
VERTEX
  5
107
  8
BASE
 10
4.290580319596332
 20
20.73068962016023
 30
0.0
 42
1.0
  0
VERTEX
  5
108
  8
BASE
 10
5.082539914525265
 20
19.93873002523129
 30
0.0
  0
VERTEX
  5
109
  8
BASE
 10
6.598620724667396
 20
19.93873002523129
 30
0.0
 42
1.0
  0
VERTEX
  5
10A
  8
BASE
 10
7.390580319596329
 20
20.73068962016023
 30
0.0
  0
VERTEX
  5
10B
  8
BASE
 10
7.390580319596329
 20
29.24677043030238
 30
0.0
 42
1.0
  0
VERTEX
  5
10C
  8
BASE
 10
6.598620724667396
 20
30.03873002523132
 30
0.0
  0
VERTEX
  5
10D
  8
BASE
 10
5.082539914525265
 20
30.03873002523132
 30
0.0
 42
1.0
  0
SEQEND
  5
240
  8
BASE
  0
POLYLINE
  5
80
  8
BASE
 66
     1
 10
0.0
 20
0.0
 30
0.0
 70
     1
  0
VERTEX
  5
10E
  8
BASE
 10
4.290580319596332
 20
59.34677043030235
 30
0.0
  0
VERTEX
  5
10F
  8
BASE
 10
4.290580319596332
 20
50.83068962016025
 30
0.0
 42
1.0
  0
VERTEX
  5
110
  8
BASE
 10
5.082539914525265
 20
50.03873002523132
 30
0.0
  0
VERTEX
  5
111
  8
BASE
 10
6.598620724667396
 20
50.03873002523132
 30
0.0
 42
1.0
  0
VERTEX
  5
112
  8
BASE
 10
7.390580319596329
 20
50.83068962016025
 30
0.0
  0
VERTEX
  5
113
  8
BASE
 10
7.390580319596329
 20
59.34677043030235
 30
0.0
 42
1.0
  0
VERTEX
  5
114
  8
BASE
 10
6.598620724667396
 20
60.13873002523128
 30
0.0
  0
VERTEX
  5
115
  8
BASE
 10
5.082539914525265
 20
60.13873002523128
 30
0.0
 42
1.0
  0
SEQEND
  5
241
  8
BASE
  0
POLYLINE
  5
81
  8
BASE
 66
     1
 10
0.0
 20
0.0
 30
0.0
 70
     1
  0
VERTEX
  5
116
  8
BASE
 10
25.53253991452525
 20
4.4887300252313
 30
0.0
  0
VERTEX
  5
117
  8
BASE
 10
34.04862072466739
 20
4.4887300252313
 30
0.0
 42
1.0
  0
VERTEX
  5
118
  8
BASE
 10
34.84058031959633
 20
5.280689620160233
 30
0.0
  0
VERTEX
  5
119
  8
BASE
 10
34.84058031959633
 20
6.796770430302364
 30
0.0
 42
1.0
  0
VERTEX
  5
11A
  8
BASE
 10
34.04862072466739
 20
7.588730025231297
 30
0.0
  0
VERTEX
  5
11B
  8
BASE
 10
25.53253991452525
 20
7.588730025231297
 30
0.0
 42
1.0
  0
VERTEX
  5
11C
  8
BASE
 10
24.74058031959632
 20
6.796770430302364
 30
0.0
  0
VERTEX
  5
11D
  8
BASE
 10
24.74058031959632
 20
5.280689620160233
 30
0.0
 42
1.0
  0
SEQEND
  5
242
  8
BASE
  0
POLYLINE
  5
82
  8
BASE
 66
     1
 10
0.0
 20
0.0
 30
0.0
 70
     1
  0
VERTEX
  5
11E
  8
BASE
 10
55.63253991452526
 20
4.4887300252313
 30
0.0
  0
VERTEX
  5
11F
  8
BASE
 10
64.14862072466738
 20
4.4887300252313
 30
0.0
 42
1.0
  0
VERTEX
  5
120
  8
BASE
 10
64.94058031959632
 20
5.280689620160233
 30
0.0
  0
VERTEX
  5
121
  8
BASE
 10
64.94058031959632
 20
6.796770430302364
 30
0.0
 42
1.0
  0
VERTEX
  5
122
  8
BASE
 10
64.14862072466738
 20
7.588730025231297
 30
0.0
  0
VERTEX
  5
123
  8
BASE
 10
55.63253991452526
 20
7.588730025231297
 30
0.0
 42
1.0
  0
VERTEX
  5
124
  8
BASE
 10
54.84058031959633
 20
6.796770430302364
 30
0.0
  0
VERTEX
  5
125
  8
BASE
 10
54.84058031959633
 20
5.280689620160233
 30
0.0
 42
1.0
  0
SEQEND
  5
243
  8
BASE
  0
POLYLINE
  5
83
  8
BASE
 66
     1
 10
0.0
 20
0.0
 30
0.0
 70
     1
  0
VERTEX
  5
126
  8
BASE
 10
85.39058031959632
 20
20.73068962016023
 30
0.0
  0
VERTEX
  5
127
  8
BASE
 10
85.39058031959632
 20
29.24677043030238
 30
0.0
 42
1.0
  0
VERTEX
  5
128
  8
BASE
 10
84.59862072466738
 20
30.03873002523132
 30
0.0
  0
VERTEX
  5
129
  8
BASE
 10
83.08253991452527
 20
30.03873002523132
 30
0.0
 42
1.0
  0
VERTEX
  5
12A
  8
BASE
 10
82.29058031959633
 20
29.24677043030238
 30
0.0
  0
VERTEX
  5
12B
  8
BASE
 10
82.29058031959633
 20
20.73068962016023
 30
0.0
 42
1.0
  0
VERTEX
  5
12C
  8
BASE
 10
83.08253991452527
 20
19.93873002523129
 30
0.0
  0
VERTEX
  5
12D
  8
BASE
 10
84.59862072466738
 20
19.93873002523129
 30
0.0
 42
1.0
  0
SEQEND
  5
244
  8
BASE
  0
POLYLINE
  5
84
  8
BASE
 66
     1
 10
0.0
 20
0.0
 30
0.0
 70
     1
  0
VERTEX
  5
12E
  8
BASE
 10
85.39058031959632
 20
50.83068962016025
 30
0.0
  0
VERTEX
  5
12F
  8
BASE
 10
85.39058031959632
 20
59.34677043030235
 30
0.0
 42
1.0
  0
VERTEX
  5
130
  8
BASE
 10
84.59862072466738
 20
60.13873002523128
 30
0.0
  0
VERTEX
  5
131
  8
BASE
 10
83.08253991452527
 20
60.13873002523128
 30
0.0
 42
1.0
  0
VERTEX
  5
132
  8
BASE
 10
82.29058031959633
 20
59.34677043030235
 30
0.0
  0
VERTEX
  5
133
  8
BASE
 10
82.29058031959633
 20
50.83068962016025
 30
0.0
 42
1.0
  0
VERTEX
  5
134
  8
BASE
 10
83.08253991452527
 20
50.03873002523132
 30
0.0
  0
VERTEX
  5
135
  8
BASE
 10
84.59862072466738
 20
50.03873002523132
 30
0.0
 42
1.0
  0
SEQEND
  5
245
  8
BASE
  0
POLYLINE
  5
85
  8
BASE
 66
     1
 10
0.0
 20
0.0
 30
0.0
 70
     1
  0
VERTEX
  5
136
  8
BASE
 10
13.09058031959633
 20
14.96873002523128
 30
0.0
 42
0.4142135623730951
  0
VERTEX
  5
137
  8
BASE
 10
11.49058031959632
 20
13.36873002523129
 30
0.0
 42
0.4142135623730951
  0
VERTEX
  5
138
  8
BASE
 10
13.09058031959633
 20
11.7687300252313
 30
0.0
 42
0.4142135623730951
  0
VERTEX
  5
139
  8
BASE
 10
14.69058031959632
 20
13.36873002523129
 30
0.0
 42
0.4142135623730951
  0
SEQEND
  5
246
  8
BASE
  0
POLYLINE
  5
86
  8
BASE
 66
     1
 10
0.0
 20
0.0
 30
0.0
 70
     1
  0
VERTEX
  5
13A
  8
BASE
 10
76.59058031959633
 20
14.96873002523128
 30
0.0
 42
0.4142135623730951
  0
VERTEX
  5
13B
  8
BASE
 10
74.9905803195963
 20
13.36873002523129
 30
0.0
 42
0.4142135623730951
  0
VERTEX
  5
13C
  8
BASE
 10
76.59058031959633
 20
11.7687300252313
 30
0.0
 42
0.4142135623730951
  0
VERTEX
  5
13D
  8
BASE
 10
78.19058031959632
 20
13.36873002523129
 30
0.0
 42
0.4142135623730951
  0
SEQEND
  5
247
  8
BASE
  0
POLYLINE
  5
87
  8
BASE
 66
     1
 10
0.0
 20
0.0
 30
0.0
 70
     1
  0
VERTEX
  5
13E
  8
BASE
 10
76.59058031959633
 20
68.30873002523128
 30
0.0
 42
0.4142135623730951
  0
VERTEX
  5
13F
  8
BASE
 10
74.9905803195963
 20
66.70873002523129
 30
0.0
 42
0.4142135623730951
  0
VERTEX
  5
140
  8
BASE
 10
76.59058031959633
 20
65.1087300252313
 30
0.0
 42
0.4142135623730951
  0
VERTEX
  5
141
  8
BASE
 10
78.19058031959632
 20
66.70873002523129
 30
0.0
 42
0.4142135623730951
  0
SEQEND
  5
248
  8
BASE
  0
POLYLINE
  5
88
  8
BASE
 66
     1
 10
0.0
 20
0.0
 30
0.0
 70
     1
  0
VERTEX
  5
142
  8
BASE
 10
13.09058031959633
 20
68.30873002523128
 30
0.0
 42
0.4142135623730951
  0
VERTEX
  5
143
  8
BASE
 10
11.49058031959632
 20
66.70873002523129
 30
0.0
 42
0.4142135623730951
  0
VERTEX
  5
144
  8
BASE
 10
13.09058031959633
 20
65.1087300252313
 30
0.0
 42
0.4142135623730951
  0
VERTEX
  5
145
  8
BASE
 10
14.69058031959632
 20
66.70873002523129
 30
0.0
 42
0.4142135623730951
  0
SEQEND
  5
249
  8
BASE
  0
POLYLINE
  5
8A
  8
NUT_RECESS
 66
     1
 10
0.0
 20
0.0
 30
0.0
 70
     1
  0
VERTEX
  5
146
  8
NUT_RECESS
 10
12.13721262108872
 20
63.93744873312112
 30
0.0
  0
VERTEX
  5
147
  8
NUT_RECESS
 10
14.04394801810393
 20
63.93744873312112
 30
0.0
 42
1.0
  0
VERTEX
  5
148
  8
NUT_RECESS
 10
15.01389647034252
 20
64.49744873312112
 30
0.0
  0
VERTEX
  5
149
  8
NUT_RECESS
 10
15.96726416885015
 20
66.1487300252313
 30
0.0
 42
1.0
  0
VERTEX
  5
14A
  8
NUT_RECESS
 10
15.96726416885015
 20
67.2687300252313
 30
0.0
  0
VERTEX
  5
14B
  8
NUT_RECESS
 10
15.01389647034252
 20
68.92001131734149
 30
0.0
 42
1.0
  0
VERTEX
  5
14C
  8
NUT_RECESS
 10
14.04394801810393
 20
69.48001131734146
 30
0.0
  0
VERTEX
  5
14D
  8
NUT_RECESS
 10
12.13721262108872
 20
69.48001131734146
 30
0.0
 42
1.0
  0
VERTEX
  5
14E
  8
NUT_RECESS
 10
11.16726416885014
 20
68.92001131734149
 30
0.0
  0
VERTEX
  5
14F
  8
NUT_RECESS
 10
10.2138964703425
 20
67.2687300252313
 30
0.0
 42
1.0
  0
VERTEX
  5
150
  8
NUT_RECESS
 10
10.2138964703425
 20
66.1487300252313
 30
0.0
  0
VERTEX
  5
151
  8
NUT_RECESS
 10
11.16726416885014
 20
64.49744873312112
 30
0.0
 42
1.0
  0
SEQEND
  5
24A
  8
NUT_RECESS
  0
POLYLINE
  5
8B
  8
NUT_RECESS
 66
     1
 10
0.0
 20
0.0
 30
0.0
 70
     1
  0
VERTEX
  5
152
  8
NUT_RECESS
 10
75.63721262108871
 20
63.93744873312111
 30
0.0
  0
VERTEX
  5
153
  8
NUT_RECESS
 10
77.54394801810392
 20
63.93744873312111
 30
0.0
 42
1.0
  0
VERTEX
  5
154
  8
NUT_RECESS
 10
78.5138964703425
 20
64.4974487331211
 30
0.0
  0
VERTEX
  5
155
  8
NUT_RECESS
 10
79.46726416885014
 20
66.14873002523129
 30
0.0
 42
1.0
  0
VERTEX
  5
156
  8
NUT_RECESS
 10
79.46726416885014
 20
67.26873002523129
 30
0.0
  0
VERTEX
  5
157
  8
NUT_RECESS
 10
78.5138964703425
 20
68.92001131734148
 30
0.0
 42
1.0
  0
VERTEX
  5
158
  8
NUT_RECESS
 10
77.54394801810392
 20
69.48001131734145
 30
0.0
  0
VERTEX
  5
159
  8
NUT_RECESS
 10
75.63721262108871
 20
69.48001131734145
 30
0.0
 42
1.0
  0
VERTEX
  5
15A
  8
NUT_RECESS
 10
74.66726416885012
 20
68.92001131734148
 30
0.0
  0
VERTEX
  5
15B
  8
NUT_RECESS
 10
73.71389647034249
 20
67.26873002523129
 30
0.0
 42
1.0
  0
VERTEX
  5
15C
  8
NUT_RECESS
 10
73.71389647034249
 20
66.14873002523129
 30
0.0
  0
VERTEX
  5
15D
  8
NUT_RECESS
 10
74.66726416885012
 20
64.4974487331211
 30
0.0
 42
1.0
  0
SEQEND
  5
24B
  8
NUT_RECESS
  0
POLYLINE
  5
8C
  8
NUT_RECESS
 66
     1
 10
0.0
 20
0.0
 30
0.0
 70
     1
  0
VERTEX
  5
15E
  8
NUT_RECESS
 10
75.63721262108871
 20
10.59744873312112
 30
0.0
  0
VERTEX
  5
15F
  8
NUT_RECESS
 10
77.54394801810392
 20
10.59744873312112
 30
0.0
 42
1.0
  0
VERTEX
  5
160
  8
NUT_RECESS
 10
78.5138964703425
 20
11.15744873312111
 30
0.0
  0
VERTEX
  5
161
  8
NUT_RECESS
 10
79.46726416885014
 20
12.8087300252313
 30
0.0
 42
1.0
  0
VERTEX
  5
162
  8
NUT_RECESS
 10
79.46726416885014
 20
13.9287300252313
 30
0.0
  0
VERTEX
  5
163
  8
NUT_RECESS
 10
78.5138964703425
 20
15.58001131734149
 30
0.0
 42
1.0
  0
VERTEX
  5
164
  8
NUT_RECESS
 10
77.54394801810392
 20
16.14001131734146
 30
0.0
  0
VERTEX
  5
165
  8
NUT_RECESS
 10
75.63721262108871
 20
16.14001131734146
 30
0.0
 42
1.0
  0
VERTEX
  5
166
  8
NUT_RECESS
 10
74.66726416885012
 20
15.58001131734149
 30
0.0
  0
VERTEX
  5
167
  8
NUT_RECESS
 10
73.71389647034249
 20
13.9287300252313
 30
0.0
 42
1.0
  0
VERTEX
  5
168
  8
NUT_RECESS
 10
73.71389647034249
 20
12.8087300252313
 30
0.0
  0
VERTEX
  5
169
  8
NUT_RECESS
 10
74.66726416885012
 20
11.15744873312111
 30
0.0
 42
1.0
  0
SEQEND
  5
24C
  8
NUT_RECESS
  0
POLYLINE
  5
8D
  8
NUT_RECESS
 66
     1
 10
0.0
 20
0.0
 30
0.0
 70
     1
  0
VERTEX
  5
16A
  8
NUT_RECESS
 10
12.13721262108872
 20
10.59744873312112
 30
0.0
  0
VERTEX
  5
16B
  8
NUT_RECESS
 10
14.04394801810393
 20
10.59744873312112
 30
0.0
 42
1.0
  0
VERTEX
  5
16C
  8
NUT_RECESS
 10
15.01389647034252
 20
11.15744873312111
 30
0.0
  0
VERTEX
  5
16D
  8
NUT_RECESS
 10
15.96726416885015
 20
12.8087300252313
 30
0.0
 42
1.0
  0
VERTEX
  5
16E
  8
NUT_RECESS
 10
15.96726416885015
 20
13.9287300252313
 30
0.0
  0
VERTEX
  5
16F
  8
NUT_RECESS
 10
15.01389647034252
 20
15.58001131734149
 30
0.0
 42
1.0
  0
VERTEX
  5
170
  8
NUT_RECESS
 10
14.04394801810393
 20
16.14001131734146
 30
0.0
  0
VERTEX
  5
171
  8
NUT_RECESS
 10
12.13721262108872
 20
16.14001131734146
 30
0.0
 42
1.0
  0
VERTEX
  5
172
  8
NUT_RECESS
 10
11.16726416885014
 20
15.58001131734149
 30
0.0
  0
VERTEX
  5
173
  8
NUT_RECESS
 10
10.2138964703425
 20
13.9287300252313
 30
0.0
 42
1.0
  0
VERTEX
  5
174
  8
NUT_RECESS
 10
10.2138964703425
 20
12.8087300252313
 30
0.0
  0
VERTEX
  5
175
  8
NUT_RECESS
 10
11.16726416885014
 20
11.15744873312111
 30
0.0
 42
1.0
  0
SEQEND
  5
24D
  8
NUT_RECESS
  0
POLYLINE
  5
8F
  8
FRONTBACK
 66
     1
 10
0.0
 20
0.0
 30
0.0
 70
     1
  0
VERTEX
  5
176
  8
FRONTBACK
 10
34.6997145332212
 20
176.8403470381585
 30
0.0
 42
0.4142135623730951
  0
VERTEX
  5
177
  8
FRONTBACK
 10
35.6997145332212
 20
177.8403470381585
 30
0.0
  0
VERTEX
  5
178
  8
FRONTBACK
 10
35.6997145332212
 20
184.8403470381586
 30
0.0
 42
0.4142135623730951
  0
VERTEX
  5
179
  8
FRONTBACK
 10
34.6997145332212
 20
185.8403470381586
 30
0.0
  0
VERTEX
  5
17A
  8
FRONTBACK
 10
24.69971453322117
 20
185.8403470381586
 30
0.0
 42
0.4142135623730951
  0
VERTEX
  5
17B
  8
FRONTBACK
 10
23.69971453322117
 20
184.8403470381586
 30
0.0
  0
VERTEX
  5
17C
  8
FRONTBACK
 10
23.69971453322117
 20
177.8403470381585
 30
0.0
 42
0.4142135623730951
  0
VERTEX
  5
17D
  8
FRONTBACK
 10
24.69971453322117
 20
176.8403470381585
 30
0.0
  0
SEQEND
  5
24E
  8
FRONTBACK
  0
POLYLINE
  5
90
  8
FRONTBACK
 66
     1
 10
0.0
 20
0.0
 30
0.0
 70
     1
  0
VERTEX
  5
17E
  8
FRONTBACK
 10
10.69971453322117
 20
194.3403470381587
 30
0.0
  0
VERTEX
  5
17F
  8
FRONTBACK
 10
22.35775493829229
 20
194.3403470381587
 30
0.0
 42
1.0
  0
VERTEX
  5
180
  8
FRONTBACK
 10
23.14971453322121
 20
195.1323066330876
 30
0.0
  0
VERTEX
  5
181
  8
FRONTBACK
 10
23.14971453322121
 20
197.3403470381587
 30
0.0
  0
VERTEX
  5
182
  8
FRONTBACK
 10
33.14971453322124
 20
197.3403470381587
 30
0.0
  0
VERTEX
  5
183
  8
FRONTBACK
 10
33.14971453322124
 20
195.1323066330876
 30
0.0
 42
1.0
  0
VERTEX
  5
184
  8
FRONTBACK
 10
33.94167412815017
 20
194.3403470381587
 30
0.0
  0
VERTEX
  5
185
  8
FRONTBACK
 10
52.45775493829228
 20
194.3403470381587
 30
0.0
 42
1.0
  0
VERTEX
  5
186
  8
FRONTBACK
 10
53.24971453322124
 20
195.1323066330876
 30
0.0
  0
VERTEX
  5
187
  8
FRONTBACK
 10
53.24971453322124
 20
197.3403470381587
 30
0.0
  0
VERTEX
  5
188
  8
FRONTBACK
 10
63.24971453322124
 20
197.3403470381587
 30
0.0
  0
VERTEX
  5
189
  8
FRONTBACK
 10
63.24971453322124
 20
195.1323066330876
 30
0.0
 42
1.0
  0
VERTEX
  5
18A
  8
FRONTBACK
 10
64.04167412815016
 20
194.3403470381587
 30
0.0
  0
VERTEX
  5
18B
  8
FRONTBACK
 10
75.69971453322123
 20
194.3403470381586
 30
0.0
  0
VERTEX
  5
18C
  8
FRONTBACK
 10
78.69971453322123
 20
194.3403470381586
 30
0.0
  0
VERTEX
  5
18D
  8
FRONTBACK
 10
78.69971453322123
 20
184.3903470381586
 30
0.0
  0
VERTEX
  5
18E
  8
FRONTBACK
 10
76.39167412815019
 20
184.3903470381586
 30
0.0
 42
1.0
  0
VERTEX
  5
18F
  8
FRONTBACK
 10
75.59971453322123
 20
183.5983874432297
 30
0.0
  0
VERTEX
  5
190
  8
FRONTBACK
 10
75.59971453322123
 20
175.0823066330875
 30
0.0
 42
1.0
  0
VERTEX
  5
191
  8
FRONTBACK
 10
76.39167412815019
 20
174.2903470381586
 30
0.0
  0
VERTEX
  5
192
  8
FRONTBACK
 10
78.69971453322123
 20
174.2903470381586
 30
0.0
  0
VERTEX
  5
193
  8
FRONTBACK
 10
78.69971453322123
 20
164.3403470381586
 30
0.0
  0
VERTEX
  5
194
  8
FRONTBACK
 10
75.69971453322123
 20
164.3403470381585
 30
0.0
  0
VERTEX
  5
195
  8
FRONTBACK
 10
64.04167412815016
 20
164.3403470381585
 30
0.0
 42
1.0
  0
VERTEX
  5
196
  8
FRONTBACK
 10
63.24971453322124
 20
163.5483874432296
 30
0.0
  0
VERTEX
  5
197
  8
FRONTBACK
 10
63.24971453322124
 20
161.3403470381585
 30
0.0
  0
VERTEX
  5
198
  8
FRONTBACK
 10
53.24971453322124
 20
161.3403470381585
 30
0.0
  0
VERTEX
  5
199
  8
FRONTBACK
 10
53.24971453322124
 20
163.5483874432296
 30
0.0
 42
1.0
  0
VERTEX
  5
19A
  8
FRONTBACK
 10
52.45775493829228
 20
164.3403470381585
 30
0.0
  0
VERTEX
  5
19B
  8
FRONTBACK
 10
33.94167412815017
 20
164.3403470381585
 30
0.0
 42
1.0
  0
VERTEX
  5
19C
  8
FRONTBACK
 10
33.14971453322124
 20
163.5483874432296
 30
0.0
  0
VERTEX
  5
19D
  8
FRONTBACK
 10
33.14971453322124
 20
161.3403470381585
 30
0.0
  0
VERTEX
  5
19E
  8
FRONTBACK
 10
23.14971453322121
 20
161.3403470381585
 30
0.0
  0
VERTEX
  5
19F
  8
FRONTBACK
 10
23.14971453322121
 20
163.5483874432296
 30
0.0
 42
1.0
  0
VERTEX
  5
1A0
  8
FRONTBACK
 10
22.35775493829229
 20
164.3403470381585
 30
0.0
  0
VERTEX
  5
1A1
  8
FRONTBACK
 10
10.69971453322117
 20
164.3403470381586
 30
0.0
  0
VERTEX
  5
1A2
  8
FRONTBACK
 10
7.699714533221169
 20
164.3403470381586
 30
0.0
  0
VERTEX
  5
1A3
  8
FRONTBACK
 10
7.699714533221169
 20
174.2903470381586
 30
0.0
  0
VERTEX
  5
1A4
  8
FRONTBACK
 10
10.00775493829227
 20
174.2903470381586
 30
0.0
 42
1.0
  0
VERTEX
  5
1A5
  8
FRONTBACK
 10
10.79971453322119
 20
175.0823066330876
 30
0.0
  0
VERTEX
  5
1A6
  8
FRONTBACK
 10
10.79971453322119
 20
183.5983874432297
 30
0.0
 42
1.0
  0
VERTEX
  5
1A7
  8
FRONTBACK
 10
10.00775493829227
 20
184.3903470381586
 30
0.0
  0
VERTEX
  5
1A8
  8
FRONTBACK
 10
7.699714533221169
 20
184.3903470381586
 30
0.0
  0
VERTEX
  5
1A9
  8
FRONTBACK
 10
7.699714533221169
 20
194.3403470381586
 30
0.0
  0
SEQEND
  5
24F
  8
FRONTBACK
  0
POLYLINE
  5
91
  8
FRONTBACK
 66
     1
 10
0.0
 20
0.0
 30
0.0
 70
     1
  0
VERTEX
  5
1AA
  8
FRONTBACK
 10
52.46741848612282
 20
208.9449917325484
 30
0.0
  0
VERTEX
  5
1AB
  8
FRONTBACK
 10
52.46741848612282
 20
219.9449917325484
 30
0.0
  0
VERTEX
  5
1AC
  8
FRONTBACK
 10
42.46741848612282
 20
219.9449917325484
 30
0.0
  0
VERTEX
  5
1AD
  8
FRONTBACK
 10
42.46741848612282
 20
208.9449917325484
 30
0.0
  0
SEQEND
  5
250
  8
FRONTBACK
  0
POLYLINE
  5
92
  8
FRONTBACK
 66
     1
 10
0.0
 20
0.0
 30
0.0
 70
     1
  0
VERTEX
  5
1AE
  8
FRONTBACK
 10
63.34065010933591
 20
221.0149581075008
 30
0.0
 42
0.2990223866666432
  0
VERTEX
  5
1AF
  8
FRONTBACK
 10
66.95960380295799
 20
215.5149581075008
 30
0.0
  0
VERTEX
  5
1B0
  8
FRONTBACK
 10
71.72169641571372
 20
215.5149581075008
 30
0.0
 42
0.2990223866668555
  0
VERTEX
  5
1B1
  8
FRONTBACK
 10
75.3406501093358
 20
221.0149581075008
 30
0.0
 42
0.2990223866669754
  0
VERTEX
  5
1B2
  8
FRONTBACK
 10
71.72169641571372
 20
226.5149581075008
 30
0.0
  0
VERTEX
  5
1B3
  8
FRONTBACK
 10
66.95960380295799
 20
226.5149581075008
 30
0.0
 42
0.2990223866667702
  0
SEQEND
  5
251
  8
FRONTBACK
  0
POLYLINE
  5
93
  8
FRONTBACK
 66
     1
 10
0.0
 20
0.0
 30
0.0
 70
     1
  0
VERTEX
  5
1B4
  8
FRONTBACK
 10
21.46741848612282
 20
231.9449917325484
 30
0.0
  0
VERTEX
  5
1B5
  8
FRONTBACK
 10
33.12545889119406
 20
231.9449917325484
 30
0.0
 42
1.0
  0
VERTEX
  5
1B6
  8
FRONTBACK
 10
33.91741848612298
 20
232.7369513274774
 30
0.0
  0
VERTEX
  5
1B7
  8
FRONTBACK
 10
33.91741848612298
 20
234.9449917325485
 30
0.0
  0
VERTEX
  5
1B8
  8
FRONTBACK
 10
43.91741848612321
 20
234.9449917325485
 30
0.0
  0
VERTEX
  5
1B9
  8
FRONTBACK
 10
43.91741848612321
 20
232.7369513274774
 30
0.0
 42
1.0
  0
VERTEX
  5
1BA
  8
FRONTBACK
 10
44.70937808105214
 20
231.9449917325484
 30
0.0
  0
VERTEX
  5
1BB
  8
FRONTBACK
 10
63.22545889119425
 20
231.9449917325484
 30
0.0
 42
1.0
  0
VERTEX
  5
1BC
  8
FRONTBACK
 10
64.01741848612318
 20
232.7369513274774
 30
0.0
  0
VERTEX
  5
1BD
  8
FRONTBACK
 10
64.01741848612318
 20
234.9449917325485
 30
0.0
  0
VERTEX
  5
1BE
  8
FRONTBACK
 10
74.01741848612318
 20
234.9449917325485
 30
0.0
  0
VERTEX
  5
1BF
  8
FRONTBACK
 10
74.01741848612318
 20
232.7369513274774
 30
0.0
 42
1.0
  0
VERTEX
  5
1C0
  8
FRONTBACK
 10
74.8093780810521
 20
231.9449917325484
 30
0.0
  0
VERTEX
  5
1C1
  8
FRONTBACK
 10
86.46741848612317
 20
231.9449917325484
 30
0.0
  0
VERTEX
  5
1C2
  8
FRONTBACK
 10
89.46741848612317
 20
231.9449917325484
 30
0.0
  0
VERTEX
  5
1C3
  8
FRONTBACK
 10
89.46741848612317
 20
221.9949917325484
 30
0.0
  0
VERTEX
  5
1C4
  8
FRONTBACK
 10
87.15937808105213
 20
221.9949917325484
 30
0.0
 42
1.0
  0
VERTEX
  5
1C5
  8
FRONTBACK
 10
86.3674184861232
 20
221.2030321376195
 30
0.0
  0
VERTEX
  5
1C6
  8
FRONTBACK
 10
86.3674184861232
 20
212.6869513274773
 30
0.0
 42
1.0
  0
VERTEX
  5
1C7
  8
FRONTBACK
 10
87.15937808105213
 20
211.8949917325484
 30
0.0
  0
VERTEX
  5
1C8
  8
FRONTBACK
 10
89.46741848612317
 20
211.8949917325484
 30
0.0
  0
VERTEX
  5
1C9
  8
FRONTBACK
 10
89.46741848612317
 20
201.9449917325484
 30
0.0
  0
VERTEX
  5
1CA
  8
FRONTBACK
 10
86.46741848612317
 20
201.9449917325484
 30
0.0
  0
VERTEX
  5
1CB
  8
FRONTBACK
 10
74.8093780810521
 20
201.9449917325484
 30
0.0
 42
1.0
  0
VERTEX
  5
1CC
  8
FRONTBACK
 10
74.01741848612318
 20
201.1530321376194
 30
0.0
  0
VERTEX
  5
1CD
  8
FRONTBACK
 10
74.01741848612318
 20
198.9449917325484
 30
0.0
  0
VERTEX
  5
1CE
  8
FRONTBACK
 10
64.01741848612318
 20
198.9449917325484
 30
0.0
  0
VERTEX
  5
1CF
  8
FRONTBACK
 10
64.01741848612318
 20
201.1530321376194
 30
0.0
 42
1.0
  0
VERTEX
  5
1D0
  8
FRONTBACK
 10
63.22545889119425
 20
201.9449917325484
 30
0.0
  0
VERTEX
  5
1D1
  8
FRONTBACK
 10
44.70937808105214
 20
201.9449917325484
 30
0.0
 42
1.0
  0
VERTEX
  5
1D2
  8
FRONTBACK
 10
43.91741848612321
 20
201.1530321376194
 30
0.0
  0
VERTEX
  5
1D3
  8
FRONTBACK
 10
43.91741848612321
 20
198.9449917325484
 30
0.0
  0
VERTEX
  5
1D4
  8
FRONTBACK
 10
33.91741848612298
 20
198.9449917325484
 30
0.0
  0
VERTEX
  5
1D5
  8
FRONTBACK
 10
33.91741848612298
 20
201.1530321376194
 30
0.0
 42
1.0
  0
VERTEX
  5
1D6
  8
FRONTBACK
 10
33.12545889119406
 20
201.9449917325484
 30
0.0
  0
VERTEX
  5
1D7
  8
FRONTBACK
 10
21.46741848612282
 20
201.9449917325484
 30
0.0
  0
VERTEX
  5
1D8
  8
FRONTBACK
 10
18.4674184861228
 20
201.9449917325484
 30
0.0
  0
VERTEX
  5
1D9
  8
FRONTBACK
 10
18.46741848612282
 20
211.1030321376195
 30
0.0
 42
-1.0
  0
VERTEX
  5
1DA
  8
FRONTBACK
 10
19.25937808105175
 20
211.8949917325484
 30
0.0
  0
VERTEX
  5
1DB
  8
FRONTBACK
 10
21.56741848612279
 20
211.8949917325484
 30
0.0
  0
VERTEX
  5
1DC
  8
FRONTBACK
 10
21.56741848612279
 20
221.9949917325484
 30
0.0
  0
VERTEX
  5
1DD
  8
FRONTBACK
 10
19.25937808105175
 20
221.9949917325484
 30
0.0
 42
-1.0
  0
VERTEX
  5
1DE
  8
FRONTBACK
 10
18.46741848612282
 20
222.7869513274774
 30
0.0
  0
VERTEX
  5
1DF
  8
FRONTBACK
 10
18.46741848612282
 20
231.9449917325484
 30
0.0
  0
SEQEND
  5
252
  8
FRONTBACK
  0
POLYLINE
  5
95
  8
SIDES
 66
     1
 10
0.0
 20
0.0
 30
0.0
 70
     1
  0
VERTEX
  5
1E0
  8
SIDES
 10
152.6722657044418
 20
176.7014112048623
 30
0.0
  0
VERTEX
  5
1E1
  8
SIDES
 10
152.6722657044418
 20
174.4933707997913
 30
0.0
 42
1.0
  0
VERTEX
  5
1E2
  8
SIDES
 10
153.4642252993707
 20
173.7014112048623
 30
0.0
  0
VERTEX
  5
1E3
  8
SIDES
 10
162.6722657044418
 20
173.7014112048623
 30
0.0
  0
VERTEX
  5
1E4
  8
SIDES
 10
162.6722657044418
 20
157.0433707997913
 30
0.0
 42
1.0
  0
VERTEX
  5
1E5
  8
SIDES
 10
163.4642252993707
 20
156.2514112048623
 30
0.0
  0
VERTEX
  5
1E6
  8
SIDES
 10
165.6722657044418
 20
156.2514112048623
 30
0.0
  0
VERTEX
  5
1E7
  8
SIDES
 10
165.6722657044418
 20
146.2514112048623
 30
0.0
  0
VERTEX
  5
1E8
  8
SIDES
 10
163.4642252993707
 20
146.2514112048623
 30
0.0
 42
1.0
  0
VERTEX
  5
1E9
  8
SIDES
 10
162.6722657044418
 20
145.4594516099334
 30
0.0
  0
VERTEX
  5
1EA
  8
SIDES
 10
162.6722657044418
 20
126.9433707997914
 30
0.0
 42
1.0
  0
VERTEX
  5
1EB
  8
SIDES
 10
163.4642252993707
 20
126.1514112048624
 30
0.0
  0
VERTEX
  5
1EC
  8
SIDES
 10
165.6722657044418
 20
126.1514112048624
 30
0.0
  0
VERTEX
  5
1ED
  8
SIDES
 10
165.6722657044418
 20
116.1514112048626
 30
0.0
  0
VERTEX
  5
1EE
  8
SIDES
 10
163.4642252993707
 20
116.1514112048626
 30
0.0
 42
1.0
  0
VERTEX
  5
1EF
  8
SIDES
 10
162.6722657044418
 20
115.3594516099337
 30
0.0
  0
VERTEX
  5
1F0
  8
SIDES
 10
162.6722657044418
 20
98.70141120486284
 30
0.0
  0
VERTEX
  5
1F1
  8
SIDES
 10
153.4642252993707
 20
98.70141120486284
 30
0.0
 42
1.0
  0
VERTEX
  5
1F2
  8
SIDES
 10
152.6722657044418
 20
97.9094516099339
 30
0.0
  0
VERTEX
  5
1F3
  8
SIDES
 10
152.6722657044418
 20
95.70141120486284
 30
0.0
  0
VERTEX
  5
1F4
  8
SIDES
 10
142.6722657044417
 20
95.70141120486284
 30
0.0
  0
VERTEX
  5
1F5
  8
SIDES
 10
142.6722657044417
 20
97.9094516099339
 30
0.0
 42
1.0
  0
VERTEX
  5
1F6
  8
SIDES
 10
141.8803061095128
 20
98.70141120486284
 30
0.0
  0
VERTEX
  5
1F7
  8
SIDES
 10
132.6722657044417
 20
98.70141120486284
 30
0.0
  0
VERTEX
  5
1F8
  8
SIDES
 10
132.6722657044417
 20
115.3594516099337
 30
0.0
 42
1.0
  0
VERTEX
  5
1F9
  8
SIDES
 10
131.8803061095128
 20
116.1514112048626
 30
0.0
  0
VERTEX
  5
1FA
  8
SIDES
 10
129.6722657044417
 20
116.1514112048626
 30
0.0
  0
VERTEX
  5
1FB
  8
SIDES
 10
129.6722657044417
 20
126.1514112048625
 30
0.0
  0
VERTEX
  5
1FC
  8
SIDES
 10
131.8803061095128
 20
126.1514112048625
 30
0.0
 42
1.0
  0
VERTEX
  5
1FD
  8
SIDES
 10
132.6722657044417
 20
126.9433707997914
 30
0.0
  0
VERTEX
  5
1FE
  8
SIDES
 10
132.6722657044417
 20
145.4594516099334
 30
0.0
 42
1.0
  0
VERTEX
  5
1FF
  8
SIDES
 10
131.8803061095128
 20
146.2514112048623
 30
0.0
  0
VERTEX
  5
200
  8
SIDES
 10
129.6722657044417
 20
146.2514112048623
 30
0.0
  0
VERTEX
  5
201
  8
SIDES
 10
129.6722657044417
 20
156.2514112048623
 30
0.0
  0
VERTEX
  5
202
  8
SIDES
 10
131.8803061095128
 20
156.2514112048623
 30
0.0
 42
1.0
  0
VERTEX
  5
203
  8
SIDES
 10
132.6722657044417
 20
157.0433707997913
 30
0.0
  0
VERTEX
  5
204
  8
SIDES
 10
132.6722657044417
 20
173.7014112048623
 30
0.0
  0
VERTEX
  5
205
  8
SIDES
 10
141.8803061095128
 20
173.7014112048623
 30
0.0
 42
1.0
  0
VERTEX
  5
206
  8
SIDES
 10
142.6722657044418
 20
174.4933707997913
 30
0.0
  0
VERTEX
  5
207
  8
SIDES
 10
142.6722657044418
 20
176.7014112048623
 30
0.0
  0
SEQEND
  5
253
  8
SIDES
  0
POLYLINE
  5
96
  8
SIDES
 66
     1
 10
0.0
 20
0.0
 30
0.0
 70
     1
  0
VERTEX
  5
208
  8
SIDES
 10
152.4560305904697
 20
88.45126156433926
 30
0.0
  0
VERTEX
  5
209
  8
SIDES
 10
152.4560305904697
 20
86.2432211592682
 30
0.0
 42
1.0
  0
VERTEX
  5
20A
  8
SIDES
 10
153.2479901853986
 20
85.45126156433926
 30
0.0
  0
VERTEX
  5
20B
  8
SIDES
 10
162.4560305904697
 20
85.45126156433926
 30
0.0
  0
VERTEX
  5
20C
  8
SIDES
 10
162.4560305904697
 20
68.79322115926847
 30
0.0
 42
1.0
  0
VERTEX
  5
20D
  8
SIDES
 10
163.2479901853987
 20
68.00126156433953
 30
0.0
  0
VERTEX
  5
20E
  8
SIDES
 10
165.4560305904697
 20
68.00126156433953
 30
0.0
  0
VERTEX
  5
20F
  8
SIDES
 10
165.4560305904697
 20
58.00126156433964
 30
0.0
  0
VERTEX
  5
210
  8
SIDES
 10
163.2479901853987
 20
58.00126156433964
 30
0.0
 42
1.0
  0
VERTEX
  5
211
  8
SIDES
 10
162.4560305904697
 20
57.2093019694107
 30
0.0
  0
VERTEX
  5
212
  8
SIDES
 10
162.4560305904697
 20
38.69322115926886
 30
0.0
 42
1.0
  0
VERTEX
  5
213
  8
SIDES
 10
163.2479901853987
 20
37.90126156433993
 30
0.0
  0
VERTEX
  5
214
  8
SIDES
 10
165.4560305904697
 20
37.90126156433993
 30
0.0
  0
VERTEX
  5
215
  8
SIDES
 10
165.4560305904697
 20
27.90126156434014
 30
0.0
  0
VERTEX
  5
216
  8
SIDES
 10
163.2479901853987
 20
27.90126156434014
 30
0.0
 42
1.0
  0
VERTEX
  5
217
  8
SIDES
 10
162.4560305904697
 20
27.10930196941121
 30
0.0
  0
VERTEX
  5
218
  8
SIDES
 10
162.4560305904697
 20
10.45126156434035
 30
0.0
  0
VERTEX
  5
219
  8
SIDES
 10
153.2479901853987
 20
10.45126156434035
 30
0.0
 42
1.0
  0
VERTEX
  5
21A
  8
SIDES
 10
152.4560305904697
 20
9.659301969411418
 30
0.0
  0
VERTEX
  5
21B
  8
SIDES
 10
152.4560305904697
 20
7.451261564340351
 30
0.0
  0
VERTEX
  5
21C
  8
SIDES
 10
142.4560305904697
 20
7.451261564340351
 30
0.0
  0
VERTEX
  5
21D
  8
SIDES
 10
142.4560305904697
 20
9.659301969411418
 30
0.0
 42
1.0
  0
VERTEX
  5
21E
  8
SIDES
 10
141.6640709955408
 20
10.45126156434035
 30
0.0
  0
VERTEX
  5
21F
  8
SIDES
 10
132.4560305904697
 20
10.45126156434035
 30
0.0
  0
VERTEX
  5
220
  8
SIDES
 10
132.4560305904697
 20
27.10930196941121
 30
0.0
 42
1.0
  0
VERTEX
  5
221
  8
SIDES
 10
131.6640709955408
 20
27.90126156434014
 30
0.0
  0
VERTEX
  5
222
  8
SIDES
 10
129.4560305904697
 20
27.90126156434014
 30
0.0
  0
VERTEX
  5
223
  8
SIDES
 10
129.4560305904697
 20
37.90126156433998
 30
0.0
  0
VERTEX
  5
224
  8
SIDES
 10
131.6640709955408
 20
37.90126156433998
 30
0.0
 42
1.0
  0
VERTEX
  5
225
  8
SIDES
 10
132.4560305904697
 20
38.69322115926892
 30
0.0
  0
VERTEX
  5
226
  8
SIDES
 10
132.4560305904697
 20
57.2093019694107
 30
0.0
 42
1.0
  0
VERTEX
  5
227
  8
SIDES
 10
131.6640709955408
 20
58.00126156433964
 30
0.0
  0
VERTEX
  5
228
  8
SIDES
 10
129.4560305904697
 20
58.00126156433964
 30
0.0
  0
VERTEX
  5
229
  8
SIDES
 10
129.4560305904697
 20
68.00126156433953
 30
0.0
  0
VERTEX
  5
22A
  8
SIDES
 10
131.6640709955408
 20
68.00126156433953
 30
0.0
 42
1.0
  0
VERTEX
  5
22B
  8
SIDES
 10
132.4560305904697
 20
68.79322115926847
 30
0.0
  0
VERTEX
  5
22C
  8
SIDES
 10
132.4560305904697
 20
85.45126156433926
 30
0.0
  0
VERTEX
  5
22D
  8
SIDES
 10
141.6640709955408
 20
85.45126156433926
 30
0.0
 42
1.0
  0
VERTEX
  5
22E
  8
SIDES
 10
142.4560305904697
 20
86.2432211592682
 30
0.0
  0
VERTEX
  5
22F
  8
SIDES
 10
142.4560305904697
 20
88.45126156433926
 30
0.0
  0
SEQEND
  5
254
  8
SIDES
  0
ENDSEC
  0
EOF
